ISO-10303-21;
HEADER;
FILE_DESCRIPTION (( 'STEP AP203' ),
    '1' );
FILE_NAME ('1.31.2020.03.STEP',
    '2014-06-24T00:37:19',
    ( 'USER' ),
    ( 'Microsoft' ),
    'SwSTEP 2.0',
    'SolidWorks 2012',
    '' );
FILE_SCHEMA (( 'CONFIG_CONTROL_DESIGN' ));
ENDSEC;

DATA;
#1 = PERSON_AND_ORGANIZATION ( #5, #20 ) ;
#2 = APPROVAL_DATE_TIME ( #3, #278 ) ;
#3 = DATE_AND_TIME ( #4, #36 ) ;
#4 = CALENDAR_DATE ( 2014, 24, 6 ) ;
#5 = PERSON ( 'Î´Ö¸¶¨', 'Î´Ö¸¶¨', 'Î´Ö¸¶¨', ('Î´Ö¸¶¨'), ('Î´Ö¸¶¨'), ('Î´Ö¸¶¨') ) ;
#6 = PRODUCT ( '1.31.2020.03', '1.31.2020.03', '', ( #172 ) ) ;
#7 = COORDINATED_UNIVERSAL_TIME_OFFSET ( 8, 0, .AHEAD. ) ;
#8 = LOCAL_TIME ( 8, 37, 19.00000000000000000, #7 ) ;
#9 = LOCAL_TIME ( 8, 37, 19.00000000000000000, #10 ) ;
#10 = COORDINATED_UNIVERSAL_TIME_OFFSET ( 8, 0, .AHEAD. ) ;
#11 = PERSON_AND_ORGANIZATION ( #5, #20 ) ;
#12 = APPROVAL_DATE_TIME ( #13, #285 ) ;
#13 = DATE_AND_TIME ( #14, #15 ) ;
#14 = CALENDAR_DATE ( 2014, 24, 6 ) ;
#15 = LOCAL_TIME ( 8, 37, 19.00000000000000000, #16 ) ;
#16 = COORDINATED_UNIVERSAL_TIME_OFFSET ( 8, 0, .AHEAD. ) ;
#17 = APPROVAL_PERSON_ORGANIZATION ( #18, #285, #167 ) ;
#18 = PERSON_AND_ORGANIZATION ( #5, #20 ) ;
#19 = PERSON_AND_ORGANIZATION ( #5, #20 ) ;
#20 = ORGANIZATION ( 'Î´Ö¸¶¨', 'Î´Ö¸¶¨', '' ) ;
#21 = VECTOR ( 'NONE', #181, 1000.000000000000000 ) ;
#22 = SHAPE_DEFINITION_REPRESENTATION ( #103, #92 ) ;
#23 = VECTOR ( 'NONE', #183, 1000.000000000000000 ) ;
#24 = LINE ( 'NONE', #202, #23 ) ;
#25 = LINE ( 'NONE', #182, #21 ) ;
#26 = VECTOR ( 'NONE', #184, 1000.000000000000000 ) ;
#27 = VECTOR ( 'NONE', #186, 1000.000000000000000 ) ;
#28 = LINE ( 'NONE', #187, #27 ) ;
#29 = LINE ( 'NONE', #185, #26 ) ;
#30 = VECTOR ( 'NONE', #188, 1000.000000000000000 ) ;
#31 = CALENDAR_DATE ( 2014, 24, 6 ) ;
#32 = PERSON_AND_ORGANIZATION ( #5, #20 ) ;
#33 = COORDINATED_UNIVERSAL_TIME_OFFSET ( 8, 0, .AHEAD. ) ;
#34 = APPROVAL_PERSON_ORGANIZATION ( #32, #278, #163 ) ;
#35 = DATE_AND_TIME ( #31, #9 ) ;
#36 = LOCAL_TIME ( 8, 37, 19.00000000000000000, #33 ) ;
#37 = PERSON_AND_ORGANIZATION ( #5, #20 ) ;
#38 = VECTOR ( 'NONE', #190, 1000.000000000000000 ) ;
#39 = LINE ( 'NONE', #189, #30 ) ;
#40 = VECTOR ( 'NONE', #193, 1000.000000000000000 ) ;
#41 = LINE ( 'NONE', #192, #38 ) ;
#42 = VECTOR ( 'NONE', #207, 1000.000000000000000 ) ;
#43 = VECTOR ( 'NONE', #195, 1000.000000000000000 ) ;
#44 = LINE ( 'NONE', #194, #40 ) ;
#45 = VECTOR ( 'NONE', #196, 1000.000000000000000 ) ;
#46 = PERSON_AND_ORGANIZATION ( #5, #20 ) ;
#47 = VECTOR ( 'NONE', #198, 1000.000000000000000 ) ;
#48 = LINE ( 'NONE', #197, #45 ) ;
#49 = VECTOR ( 'NONE', #200, 1000.000000000000000 ) ;
#50 = LINE ( 'NONE', #199, #47 ) ;
#51 = VECTOR ( 'NONE', #201, 1000.000000000000000 ) ;
#52 = LINE ( 'NONE', #206, #43 ) ;
#53 = VECTOR ( 'NONE', #205, 1000.000000000000000 ) ;
#54 = LINE ( 'NONE', #203, #51 ) ;
#55 = EDGE_LOOP ( 'NONE', ( #122, #112, #121, #148 ) ) ;
#56 = EDGE_LOOP ( 'NONE', ( #147, #134, #143, #117 ) ) ;
#57 = EDGE_LOOP ( 'NONE', ( #116, #123, #152, #125 ) ) ;
#58 = EDGE_LOOP ( 'NONE', ( #151, #120, #130, #144 ) ) ;
#59 = LINE ( 'NONE', #223, #42 ) ;
#60 = VECTOR ( 'NONE', #210, 1000.000000000000000 ) ;
#61 = LINE ( 'NONE', #211, #53 ) ;
#62 = VECTOR ( 'NONE', #209, 1000.000000000000000 ) ;
#63 = FACE_OUTER_BOUND ( 'NONE', #118, .T. ) ;
#64 = LINE ( 'NONE', #216, #80 ) ;
#65 = LINE ( 'NONE', #215, #67 ) ;
#66 = LINE ( 'NONE', #212, #60 ) ;
#67 = VECTOR ( 'NONE', #213, 1000.000000000000000 ) ;
#68 = LINE ( 'NONE', #208, #49 ) ;
#69 = EDGE_LOOP ( 'NONE', ( #114, #133, #141, #127, #142, #136 ) ) ;
#70 = FACE_OUTER_BOUND ( 'NONE', #57, .T. ) ;
#71 = FACE_OUTER_BOUND ( 'NONE', #113, .T. ) ;
#72 = FACE_OUTER_BOUND ( 'NONE', #56, .T. ) ;
#73 = FACE_OUTER_BOUND ( 'NONE', #58, .T. ) ;
#74 = FACE_OUTER_BOUND ( 'NONE', #55, .T. ) ;
#75 = FACE_OUTER_BOUND ( 'NONE', #69, .T. ) ;
#76 = VERTEX_POINT ( 'NONE', #253 ) ;
#77 = VERTEX_POINT ( 'NONE', #255 ) ;
#78 = VERTEX_POINT ( 'NONE', #257 ) ;
#79 = LINE ( 'NONE', #219, #62 ) ;
#80 = VECTOR ( 'NONE', #214, 1000.000000000000000 ) ;
#81 = VERTEX_POINT ( 'NONE', #154 ) ;
#82 = VERTEX_POINT ( 'NONE', #191 ) ;
#83 = VERTEX_POINT ( 'NONE', #153 ) ;
#84 = VERTEX_POINT ( 'NONE', #256 ) ;
#85 = VERTEX_POINT ( 'NONE', #204 ) ;
#86 = VERTEX_POINT ( 'NONE', #155 ) ;
#87 = VERTEX_POINT ( 'NONE', #254 ) ;
#88 = VERTEX_POINT ( 'NONE', #252 ) ;
#89 = VERTEX_POINT ( 'NONE', #251 ) ;
#90 = MANIFOLD_SOLID_BREP ( 'À­Éì1', #140 ) ;
#91 = UNCERTAINTY_MEASURE_WITH_UNIT (LENGTH_MEASURE( 1.000000000000000100E-005 ), #180, 'distance_accuracy_value', 'NONE');
#92 = ADVANCED_BREP_SHAPE_REPRESENTATION ( '1.31.2020.03', ( #90, #258 ), #293 ) ;
#93 = CALENDAR_DATE ( 2014, 24, 6 ) ;
#94 = DATE_AND_TIME ( #93, #8 ) ;
#95 = PERSON_AND_ORGANIZATION ( #5, #20 ) ;
#96 = APPROVAL_PERSON_ORGANIZATION ( #95, #268, #156 ) ;
#97 = COORDINATED_UNIVERSAL_TIME_OFFSET ( 8, 0, .AHEAD. ) ;
#98 = LOCAL_TIME ( 8, 37, 19.00000000000000000, #97 ) ;
#99 = CALENDAR_DATE ( 2014, 24, 6 ) ;
#100 = DATE_AND_TIME ( #99, #98 ) ;
#101 = APPROVAL_DATE_TIME ( #100, #268 ) ;
#102 = DESIGN_CONTEXT ( 'detailed design', #170, 'design' ) ;
#103 = PRODUCT_DEFINITION_SHAPE ( 'NONE', 'NONE',  #288 ) ;
#104 = ADVANCED_FACE ( 'NONE', ( #74 ), #250, .F. ) ;
#105 = ADVANCED_FACE ( 'NONE', ( #71 ), #244, .F. ) ;
#106 = ADVANCED_FACE ( 'NONE', ( #132 ), #240, .T. ) ;
#107 = ADVANCED_FACE ( 'NONE', ( #73 ), #236, .F. ) ;
#108 = ADVANCED_FACE ( 'NONE', ( #63 ), #232, .F. ) ;
#109 = ADVANCED_FACE ( 'NONE', ( #72 ), #228, .F. ) ;
#110 = ADVANCED_FACE ( 'NONE', ( #70 ), #224, .F. ) ;
#111 = ADVANCED_FACE ( 'NONE', ( #75 ), #220, .F. ) ;
#112 = ORIENTED_EDGE ( 'NONE', *, *, #291, .F. ) ;
#113 = EDGE_LOOP ( 'NONE', ( #126, #137, #139, #131 ) ) ;
#114 = ORIENTED_EDGE ( 'NONE', *, *, #260, .F. ) ;
#115 = ORIENTED_EDGE ( 'NONE', *, *, #286, .T. ) ;
#116 = ORIENTED_EDGE ( 'NONE', *, *, #296, .T. ) ;
#117 = ORIENTED_EDGE ( 'NONE', *, *, #269, .T. ) ;
#118 = EDGE_LOOP ( 'NONE', ( #138, #129, #135, #124 ) ) ;
#119 = ORIENTED_EDGE ( 'NONE', *, *, #294, .T. ) ;
#120 = ORIENTED_EDGE ( 'NONE', *, *, #269, .F. ) ;
#121 = ORIENTED_EDGE ( 'NONE', *, *, #286, .F. ) ;
#122 = ORIENTED_EDGE ( 'NONE', *, *, #260, .T. ) ;
#123 = ORIENTED_EDGE ( 'NONE', *, *, #259, .F. ) ;
#124 = ORIENTED_EDGE ( 'NONE', *, *, #291, .T. ) ;
#125 = ORIENTED_EDGE ( 'NONE', *, *, #299, .T. ) ;
#126 = ORIENTED_EDGE ( 'NONE', *, *, #290, .T. ) ;
#127 = ORIENTED_EDGE ( 'NONE', *, *, #276, .F. ) ;
#128 = ORIENTED_EDGE ( 'NONE', *, *, #263, .T. ) ;
#129 = ORIENTED_EDGE ( 'NONE', *, *, #262, .F. ) ;
#130 = ORIENTED_EDGE ( 'NONE', *, *, #273, .F. ) ;
#131 = ORIENTED_EDGE ( 'NONE', *, *, #283, .T. ) ;
#132 = FACE_OUTER_BOUND ( 'NONE', #145, .T. ) ;
#133 = ORIENTED_EDGE ( 'NONE', *, *, #296, .F. ) ;
#134 = ORIENTED_EDGE ( 'NONE', *, *, #283, .F. ) ;
#135 = ORIENTED_EDGE ( 'NONE', *, *, #263, .F. ) ;
#136 = ORIENTED_EDGE ( 'NONE', *, *, #261, .F. ) ;
#137 = ORIENTED_EDGE ( 'NONE', *, *, #299, .F. ) ;
#138 = ORIENTED_EDGE ( 'NONE', *, *, #261, .T. ) ;
#139 = ORIENTED_EDGE ( 'NONE', *, *, #294, .F. ) ;
#140 = CLOSED_SHELL ( 'NONE', ( #104, #108, #107, #109, #105, #110, #106, #111 ) ) ;
#141 = ORIENTED_EDGE ( 'NONE', *, *, #290, .F. ) ;
#142 = ORIENTED_EDGE ( 'NONE', *, *, #264, .F. ) ;
#143 = ORIENTED_EDGE ( 'NONE', *, *, #287, .F. ) ;
#144 = ORIENTED_EDGE ( 'NONE', *, *, #262, .T. ) ;
#145 = EDGE_LOOP ( 'NONE', ( #115, #128, #146, #149, #119, #150 ) ) ;
#146 = ORIENTED_EDGE ( 'NONE', *, *, #273, .T. ) ;
#147 = ORIENTED_EDGE ( 'NONE', *, *, #276, .T. ) ;
#148 = ORIENTED_EDGE ( 'NONE', *, *, #259, .T. ) ;
#149 = ORIENTED_EDGE ( 'NONE', *, *, #287, .T. ) ;
#150 = ORIENTED_EDGE ( 'NONE', *, *, #301, .T. ) ;
#151 = ORIENTED_EDGE ( 'NONE', *, *, #264, .T. ) ;
#152 = ORIENTED_EDGE ( 'NONE', *, *, #301, .F. ) ;
#153 = CARTESIAN_POINT ( 'NONE',  ( 1371.419215745690100, 904.2540757600436300, 1000.000000000000000 ) ) ;
#154 = CARTESIAN_POINT ( 'NONE',  ( 1371.419215745690100, 904.2540757600436300, 0.0000000000000000000 ) ) ;
#155 = CARTESIAN_POINT ( 'NONE',  ( 1374.419215745690100, 907.2540757600436300, 0.0000000000000000000 ) ) ;
#156 = APPROVAL_ROLE ( '' ) ;
#157 = APPROVAL_STATUS ( 'not_yet_approved' ) ;
#158 = DATE_TIME_ROLE ( 'classification_date' ) ;
#159 = PERSON_AND_ORGANIZATION_ROLE ( 'classification_officer' ) ;
#160 = SECURITY_CLASSIFICATION_LEVEL ( 'unclassified' ) ;
#161 = PERSON_AND_ORGANIZATION_ROLE ( 'design_supplier' ) ;
#162 = PERSON_AND_ORGANIZATION_ROLE ( 'creator' ) ;
#163 = APPROVAL_ROLE ( '' ) ;
#164 = APPROVAL_STATUS ( 'not_yet_approved' ) ;
#165 = DATE_TIME_ROLE ( 'creation_date' ) ;
#166 = PERSON_AND_ORGANIZATION_ROLE ( 'creator' ) ;
#167 = APPROVAL_ROLE ( '' ) ;
#168 = APPROVAL_STATUS ( 'not_yet_approved' ) ;
#169 = APPLICATION_PROTOCOL_DEFINITION ( 'international standard', 'config_control_design', 1994, #170 ) ;
#170 = APPLICATION_CONTEXT ( 'configuration controlled 3d designs of mechanical parts and assemblies' ) ;
#171 = PERSON_AND_ORGANIZATION_ROLE ( 'design_owner' ) ;
#172 = MECHANICAL_CONTEXT ( 'NONE', #176, 'mechanical' ) ;
#173 = DIRECTION ( 'NONE',  ( 1.000000000000000000, 0.0000000000000000000, 0.0000000000000000000 ) ) ;
#174 = DIRECTION ( 'NONE',  ( 0.0000000000000000000, 0.0000000000000000000, 1.000000000000000000 ) ) ;
#175 = CARTESIAN_POINT ( 'NONE',  ( 0.0000000000000000000, 0.0000000000000000000, 0.0000000000000000000 ) ) ;
#176 = APPLICATION_CONTEXT ( 'configuration controlled 3d designs of mechanical parts and assemblies' ) ;
#177 = APPLICATION_PROTOCOL_DEFINITION ( 'international standard', 'config_control_design', 1994, #176 ) ;
#178 =( NAMED_UNIT ( * ) SI_UNIT ( $, .STERADIAN. ) SOLID_ANGLE_UNIT ( ) );
#179 =( NAMED_UNIT ( * ) PLANE_ANGLE_UNIT ( ) SI_UNIT ( $, .RADIAN. ) );
#180 =( LENGTH_UNIT ( ) NAMED_UNIT ( * ) SI_UNIT ( .MILLI., .METRE. ) );
#181 = DIRECTION ( 'NONE',  ( 0.0000000000000000000, 1.000000000000000000, 0.0000000000000000000 ) ) ;
#182 = CARTESIAN_POINT ( 'NONE',  ( 1374.419215745690100, 907.2540757600436300, 1000.000000000000000 ) ) ;
#183 = DIRECTION ( 'NONE',  ( -0.0000000000000000000, -0.0000000000000000000, -1.000000000000000000 ) ) ;
#184 = DIRECTION ( 'NONE',  ( 0.0000000000000000000, 1.000000000000000000, 0.0000000000000000000 ) ) ;
#185 = CARTESIAN_POINT ( 'NONE',  ( 1374.419215745690100, 907.2540757600436300, 0.0000000000000000000 ) ) ;
#186 = DIRECTION ( 'NONE',  ( -1.000000000000000000, 0.0000000000000000000, 0.0000000000000000000 ) ) ;
#187 = CARTESIAN_POINT ( 'NONE',  ( 1391.419215745690100, 907.2540757600436300, 1000.000000000000000 ) ) ;
#188 = DIRECTION ( 'NONE',  ( -0.0000000000000000000, -0.0000000000000000000, -1.000000000000000000 ) ) ;
#189 = CARTESIAN_POINT ( 'NONE',  ( 1371.419215745690100, 924.2540757600437500, 1000.000000000000000 ) ) ;
#190 = DIRECTION ( 'NONE',  ( -1.000000000000000000, 0.0000000000000000000, 0.0000000000000000000 ) ) ;
#191 = CARTESIAN_POINT ( 'NONE',  ( 1371.419215745690100, 924.2540757600437500, 0.0000000000000000000 ) ) ;
#192 = CARTESIAN_POINT ( 'NONE',  ( 1391.419215745690100, 907.2540757600436300, 0.0000000000000000000 ) ) ;
#193 = DIRECTION ( 'NONE',  ( 0.0000000000000000000, 1.000000000000000000, 0.0000000000000000000 ) ) ;
#194 = CARTESIAN_POINT ( 'NONE',  ( 1391.419215745690100, 904.2540757600436300, 1000.000000000000000 ) ) ;
#195 = DIRECTION ( 'NONE',  ( -1.000000000000000000, -0.0000000000000000000, -0.0000000000000000000 ) ) ;
#196 = DIRECTION ( 'NONE',  ( -0.0000000000000000000, -0.0000000000000000000, -1.000000000000000000 ) ) ;
#197 = CARTESIAN_POINT ( 'NONE',  ( 1391.419215745690100, 907.2540757600436300, 1000.000000000000000 ) ) ;
#198 = DIRECTION ( 'NONE',  ( 0.0000000000000000000, 1.000000000000000000, 0.0000000000000000000 ) ) ;
#199 = CARTESIAN_POINT ( 'NONE',  ( 1391.419215745690100, 904.2540757600436300, 0.0000000000000000000 ) ) ;
#200 = DIRECTION ( 'NONE',  ( 1.000000000000000000, 0.0000000000000000000, 0.0000000000000000000 ) ) ;
#201 = DIRECTION ( 'NONE',  ( -0.0000000000000000000, -0.0000000000000000000, -1.000000000000000000 ) ) ;
#202 = CARTESIAN_POINT ( 'NONE',  ( 1374.419215745690100, 907.2540757600436300, 1000.000000000000000 ) ) ;
#203 = CARTESIAN_POINT ( 'NONE',  ( 1391.419215745690100, 904.2540757600436300, 1000.000000000000000 ) ) ;
#204 = CARTESIAN_POINT ( 'NONE',  ( 1374.419215745690100, 907.2540757600436300, 1000.000000000000000 ) ) ;
#205 = DIRECTION ( 'NONE',  ( 1.000000000000000000, 0.0000000000000000000, 0.0000000000000000000 ) ) ;
#206 = CARTESIAN_POINT ( 'NONE',  ( 1371.419215745690100, 924.2540757600437500, 1000.000000000000000 ) ) ;
#207 = DIRECTION ( 'NONE',  ( 0.0000000000000000000, -1.000000000000000000, 0.0000000000000000000 ) ) ;
#208 = CARTESIAN_POINT ( 'NONE',  ( 1371.419215745690100, 904.2540757600436300, 1000.000000000000000 ) ) ;
#209 = DIRECTION ( 'NONE',  ( -0.0000000000000000000, -0.0000000000000000000, -1.000000000000000000 ) ) ;
#210 = DIRECTION ( 'NONE',  ( 0.0000000000000000000, -1.000000000000000000, 0.0000000000000000000 ) ) ;
#211 = CARTESIAN_POINT ( 'NONE',  ( 1371.419215745690100, 904.2540757600436300, 0.0000000000000000000 ) ) ;
#212 = CARTESIAN_POINT ( 'NONE',  ( 1371.419215745690100, 924.2540757600437500, 0.0000000000000000000 ) ) ;
#213 = DIRECTION ( 'NONE',  ( -1.000000000000000000, -0.0000000000000000000, -0.0000000000000000000 ) ) ;
#214 = DIRECTION ( 'NONE',  ( -0.0000000000000000000, -0.0000000000000000000, -1.000000000000000000 ) ) ;
#215 = CARTESIAN_POINT ( 'NONE',  ( 1371.419215745690100, 924.2540757600437500, 0.0000000000000000000 ) ) ;
#216 = CARTESIAN_POINT ( 'NONE',  ( 1374.419215745690100, 924.2540757600437500, 1000.000000000000000 ) ) ;
#217 = DIRECTION ( 'NONE',  ( 1.000000000000000000, 0.0000000000000000000, -0.0000000000000000000 ) ) ;
#218 = DIRECTION ( 'NONE',  ( 0.0000000000000000000, 0.0000000000000000000, 1.000000000000000000 ) ) ;
#219 = CARTESIAN_POINT ( 'NONE',  ( 1371.419215745690100, 904.2540757600436300, 1000.000000000000000 ) ) ;
#220 = PLANE ( 'NONE',  #292 ) ;
#221 = DIRECTION ( 'NONE',  ( 0.0000000000000000000, 0.0000000000000000000, 1.000000000000000000 ) ) ;
#222 = DIRECTION ( 'NONE',  ( -1.000000000000000000, 0.0000000000000000000, 0.0000000000000000000 ) ) ;
#223 = CARTESIAN_POINT ( 'NONE',  ( 1371.419215745690100, 924.2540757600437500, 1000.000000000000000 ) ) ;
#224 = PLANE ( 'NONE',  #295 ) ;
#225 = DIRECTION ( 'NONE',  ( 0.0000000000000000000, 0.0000000000000000000, 1.000000000000000000 ) ) ;
#226 = DIRECTION ( 'NONE',  ( -1.000000000000000000, 0.0000000000000000000, 0.0000000000000000000 ) ) ;
#227 = CARTESIAN_POINT ( 'NONE',  ( 1374.419215745690100, 924.2540757600437500, 0.0000000000000000000 ) ) ;
#228 = PLANE ( 'NONE',  #297 ) ;
#229 = DIRECTION ( 'NONE',  ( -0.0000000000000000000, 0.0000000000000000000, -1.000000000000000000 ) ) ;
#230 = DIRECTION ( 'NONE',  ( 1.000000000000000000, 0.0000000000000000000, -0.0000000000000000000 ) ) ;
#231 = CARTESIAN_POINT ( 'NONE',  ( 1374.419215745690100, 907.2540757600436300, 1000.000000000000000 ) ) ;
#232 = PLANE ( 'NONE',  #298 ) ;
#233 = DIRECTION ( 'NONE',  ( 0.0000000000000000000, -0.0000000000000000000, 1.000000000000000000 ) ) ;
#234 = DIRECTION ( 'NONE',  ( 0.0000000000000000000, 1.000000000000000000, 0.0000000000000000000 ) ) ;
#235 = CARTESIAN_POINT ( 'NONE',  ( 1391.419215745690100, 904.2540757600436300, 1000.000000000000000 ) ) ;
#236 = PLANE ( 'NONE',  #300 ) ;
#237 = DIRECTION ( 'NONE',  ( 1.000000000000000000, 0.0000000000000000000, -0.0000000000000000000 ) ) ;
#238 = DIRECTION ( 'NONE',  ( 0.0000000000000000000, 0.0000000000000000000, 1.000000000000000000 ) ) ;
#239 = CARTESIAN_POINT ( 'NONE',  ( 1371.419215745690100, 924.2540757600437500, 1000.000000000000000 ) ) ;
#240 = PLANE ( 'NONE',  #302 ) ;
#241 = DIRECTION ( 'NONE',  ( 0.0000000000000000000, -0.0000000000000000000, -1.000000000000000000 ) ) ;
#242 = DIRECTION ( 'NONE',  ( 0.0000000000000000000, -1.000000000000000000, 0.0000000000000000000 ) ) ;
#243 = CARTESIAN_POINT ( 'NONE',  ( 1371.419215745690100, 904.2540757600436300, 1000.000000000000000 ) ) ;
#244 = PLANE ( 'NONE',  #303 ) ;
#245 = DIRECTION ( 'NONE',  ( 0.0000000000000000000, -0.0000000000000000000, -1.000000000000000000 ) ) ;
#246 = DIRECTION ( 'NONE',  ( 0.0000000000000000000, -1.000000000000000000, 0.0000000000000000000 ) ) ;
#247 = CARTESIAN_POINT ( 'NONE',  ( 1371.419215745690100, 924.2540757600437500, 1000.000000000000000 ) ) ;
#248 = CARTESIAN_POINT ( 'NONE',  ( 1374.419215745690100, 924.2540757600437500, 1000.000000000000000 ) ) ;
#249 = CARTESIAN_POINT ( 'NONE',  ( 1391.419215745690100, 907.2540757600436300, 1000.000000000000000 ) ) ;
#250 = PLANE ( 'NONE',  #279 ) ;
#251 = CARTESIAN_POINT ( 'NONE',  ( 1374.419215745690100, 924.2540757600437500, 0.0000000000000000000 ) ) ;
#252 = CARTESIAN_POINT ( 'NONE',  ( 1391.419215745690100, 907.2540757600436300, 1000.000000000000000 ) ) ;
#253 = CARTESIAN_POINT ( 'NONE',  ( 1391.419215745690100, 904.2540757600436300, 0.0000000000000000000 ) ) ;
#254 = CARTESIAN_POINT ( 'NONE',  ( 1391.419215745690100, 904.2540757600436300, 1000.000000000000000 ) ) ;
#255 = CARTESIAN_POINT ( 'NONE',  ( 1391.419215745690100, 907.2540757600436300, 0.0000000000000000000 ) ) ;
#256 = CARTESIAN_POINT ( 'NONE',  ( 1374.419215745690100, 924.2540757600437500, 1000.000000000000000 ) ) ;
#257 = CARTESIAN_POINT ( 'NONE',  ( 1371.419215745690100, 924.2540757600437500, 1000.000000000000000 ) ) ;
#258 = AXIS2_PLACEMENT_3D ( 'NONE', #175, #174, #173 ) ;
#259 = EDGE_CURVE ( 'NONE', #84, #89, #64, .T. ) ;
#260 = EDGE_CURVE ( 'NONE', #89, #82, #65, .T. ) ;
#261 = EDGE_CURVE ( 'NONE', #82, #81, #66, .T. ) ;
#262 = EDGE_CURVE ( 'NONE', #83, #81, #79, .T. ) ;
#263 = EDGE_CURVE ( 'NONE', #78, #83, #59, .T. ) ;
#264 = EDGE_CURVE ( 'NONE', #81, #76, #61, .T. ) ;
#265 = PRODUCT_RELATED_PRODUCT_CATEGORY ( 'detail', '', ( #6 ) ) ;
#266 = CC_DESIGN_SECURITY_CLASSIFICATION ( #272, ( #280 ) ) ;
#267 = CC_DESIGN_APPROVAL ( #268, ( #272 ) ) ;
#268 = APPROVAL ( #157, 'Î´Ö¸¶¨' ) ;
#269 = EDGE_CURVE ( 'NONE', #87, #76, #54, .T. ) ;
#270 = CC_DESIGN_DATE_AND_TIME_ASSIGNMENT ( #94, #158, ( #272 ) ) ;
#271 = CC_DESIGN_PERSON_AND_ORGANIZATION_ASSIGNMENT ( #37, #159, ( #272 ) ) ;
#272 = SECURITY_CLASSIFICATION ( '', '', #160 ) ;
#273 = EDGE_CURVE ( 'NONE', #83, #87, #68, .T. ) ;
#274 = CC_DESIGN_PERSON_AND_ORGANIZATION_ASSIGNMENT ( #46, #161, ( #280 ) ) ;
#275 = CC_DESIGN_PERSON_AND_ORGANIZATION_ASSIGNMENT ( #1, #162, ( #280 ) ) ;
#276 = EDGE_CURVE ( 'NONE', #76, #77, #50, .T. ) ;
#277 = CC_DESIGN_APPROVAL ( #278, ( #280 ) ) ;
#278 = APPROVAL ( #164, 'Î´Ö¸¶¨' ) ;
#279 = AXIS2_PLACEMENT_3D ( 'NONE', #247, #246, #245 ) ;
#280 = PRODUCT_DEFINITION_FORMATION_WITH_SPECIFIED_SOURCE ( 'ÈÎºÎ', '', #6, .NOT_KNOWN. ) ;
#281 = CC_DESIGN_DATE_AND_TIME_ASSIGNMENT ( #35, #165, ( #288 ) ) ;
#282 = CC_DESIGN_PERSON_AND_ORGANIZATION_ASSIGNMENT ( #11, #166, ( #288 ) ) ;
#283 = EDGE_CURVE ( 'NONE', #88, #77, #48, .T. ) ;
#284 = CC_DESIGN_APPROVAL ( #285, ( #288 ) ) ;
#285 = APPROVAL ( #168, 'Î´Ö¸¶¨' ) ;
#286 = EDGE_CURVE ( 'NONE', #84, #78, #52, .T. ) ;
#287 = EDGE_CURVE ( 'NONE', #87, #88, #44, .T. ) ;
#288 = PRODUCT_DEFINITION ( 'Î´Öª', '', #280, #102 ) ;
#289 = CC_DESIGN_PERSON_AND_ORGANIZATION_ASSIGNMENT ( #19, #171, ( #6 ) ) ;
#290 = EDGE_CURVE ( 'NONE', #77, #86, #41, .T. ) ;
#291 = EDGE_CURVE ( 'NONE', #78, #82, #39, .T. ) ;
#292 = AXIS2_PLACEMENT_3D ( 'NONE', #227, #218, #217 ) ;
#293 =( GEOMETRIC_REPRESENTATION_CONTEXT ( 3 ) GLOBAL_UNCERTAINTY_ASSIGNED_CONTEXT ( ( #91 ) ) GLOBAL_UNIT_ASSIGNED_CONTEXT ( ( #180, #179, #178 ) ) REPRESENTATION_CONTEXT ( 'NONE', 'WORKASPACE' ) );
#294 = EDGE_CURVE ( 'NONE', #88, #85, #28, .T. ) ;
#295 = AXIS2_PLACEMENT_3D ( 'NONE', #231, #222, #221 ) ;
#296 = EDGE_CURVE ( 'NONE', #86, #89, #29, .T. ) ;
#297 = AXIS2_PLACEMENT_3D ( 'NONE', #235, #226, #225 ) ;
#298 = AXIS2_PLACEMENT_3D ( 'NONE', #239, #230, #229 ) ;
#299 = EDGE_CURVE ( 'NONE', #85, #86, #24, .T. ) ;
#300 = AXIS2_PLACEMENT_3D ( 'NONE', #243, #234, #233 ) ;
#301 = EDGE_CURVE ( 'NONE', #85, #84, #25, .T. ) ;
#302 = AXIS2_PLACEMENT_3D ( 'NONE', #248, #238, #237 ) ;
#303 = AXIS2_PLACEMENT_3D ( 'NONE', #249, #242, #241 ) ;
ENDSEC;
END-ISO-10303-21;
